ISO-10303-21;
HEADER;
FILE_DESCRIPTION (( 'STEP AP214' ),
    '1' );
FILE_NAME ('am-3947a-1000 375H x 1000IN Spacer.STEP',
    '2025-02-06T16:34:08',
    ( '' ),
    ( '' ),
    'SwSTEP 2.0',
    'SolidWorks 2024',
    '' );
FILE_SCHEMA (( 'AUTOMOTIVE_DESIGN' ));
ENDSEC;

DATA;
#1 = CARTESIAN_POINT ( 'NONE',  ( 0.3125000000000000000, 3.827021247335478926E-17, 1.000000000000000000 ) ) ;
#2 = ORIENTED_EDGE ( 'NONE', *, *, #328, .F. ) ;
#3 = PRODUCT_RELATED_PRODUCT_CATEGORY ( 'part', '', ( #17 ) ) ;
#4 = CARTESIAN_POINT ( 'NONE',  ( -0.1085418506076496065, -0.1879999999999999727, 1.000000000000000000 ) ) ;
#5 = ORIENTED_EDGE ( 'NONE', *, *, #262, .F. ) ;
#6 = DIRECTION ( 'NONE',  ( -0.5000000000000004441, 0.8660254037844383745, 0.000000000000000000 ) ) ;
#7 = EDGE_LOOP ( 'NONE', ( #61, #144, #260, #87 ) ) ;
#8 = DIRECTION ( 'NONE',  ( 1.000000000000000000, 0.000000000000000000, 0.000000000000000000 ) ) ;
#9 = ORIENTED_EDGE ( 'NONE', *, *, #97, .F. ) ;
#10 = SHAPE_DEFINITION_REPRESENTATION ( #194, #164 ) ;
#11 = AXIS2_PLACEMENT_3D ( 'NONE', #90, #14, #274 ) ;
#12 = EDGE_LOOP ( 'NONE', ( #39, #313, #70, #132 ) ) ;
#13 = ADVANCED_FACE ( 'NONE', ( #242, #19 ), #192, .T. ) ;
#14 = DIRECTION ( 'NONE',  ( 0.000000000000000000, -1.000000000000000000, 0.000000000000000000 ) ) ;
#15 = DIRECTION ( 'NONE',  ( 0.000000000000000000, 0.000000000000000000, 1.000000000000000000 ) ) ;
#16 = PRODUCT_CONTEXT ( 'NONE', #265, 'mechanical' ) ;
#17 = PRODUCT ( 'am-3947a-1000 375H x 1000IN Spacer', 'am-3947a-1000 375H x 1000IN Spacer', '', ( #16 ) ) ;
#18 = PRESENTATION_STYLE_ASSIGNMENT (( #170 ) ) ;
#19 = FACE_BOUND ( 'NONE', #82, .T. ) ;
#20 = EDGE_CURVE ( 'NONE', #186, #257, #168, .T. ) ;
#21 = PLANE ( 'NONE',  #123 ) ;
#22 = CIRCLE ( 'NONE', #281, 0.3125000000000000000 ) ;
#23 =( NAMED_UNIT ( * ) SI_UNIT ( $, .STERADIAN. ) SOLID_ANGLE_UNIT ( ) );
#24 = CARTESIAN_POINT ( 'NONE',  ( 0.2170837012152992962, -8.629126648930641522E-21, 1.000000000000000000 ) ) ;
#25 = EDGE_CURVE ( 'NONE', #324, #162, #317, .T. ) ;
#26 = DIRECTION ( 'NONE',  ( -0.000000000000000000, -0.000000000000000000, -1.000000000000000000 ) ) ;
#27 = VECTOR ( 'NONE', #208, 39.37007874015748143 ) ;
#28 = FACE_OUTER_BOUND ( 'NONE', #34, .T. ) ;
#29 = FACE_OUTER_BOUND ( 'NONE', #269, .T. ) ;
#30 = EDGE_LOOP ( 'NONE', ( #96, #145, #163, #191 ) ) ;
#31 = CARTESIAN_POINT ( 'NONE',  ( 0.1085418506076496203, -0.1879999999999999727, 0.000000000000000000 ) ) ;
#32 = ORIENTED_EDGE ( 'NONE', *, *, #91, .T. ) ;
#33 = DIRECTION ( 'NONE',  ( -0.000000000000000000, -0.000000000000000000, -1.000000000000000000 ) ) ;
#34 = EDGE_LOOP ( 'NONE', ( #85, #134, #113, #129 ) ) ;
#35 = ORIENTED_EDGE ( 'NONE', *, *, #114, .F. ) ;
#36 = CARTESIAN_POINT ( 'NONE',  ( 0.1085418506076496203, -0.1879999999999999727, 1.000000000000000000 ) ) ;
#37 = ADVANCED_FACE ( 'NONE', ( #301 ), #195, .T. ) ;
#38 = VECTOR ( 'NONE', #238, 39.37007874015748143 ) ;
#39 = ORIENTED_EDGE ( 'NONE', *, *, #25, .F. ) ;
#40 = CYLINDRICAL_SURFACE ( 'NONE', #173, 0.3125000000000000000 ) ;
#41 = CARTESIAN_POINT ( 'NONE',  ( 0.2170837012152992962, -8.629126648930641522E-21, 1.000000000000000000 ) ) ;
#42 =( LENGTH_UNIT ( ) NAMED_UNIT ( * ) SI_UNIT ( $, .METRE. ) );
#43 = VECTOR ( 'NONE', #332, 39.37007874015748143 ) ;
#44 = EDGE_LOOP ( 'NONE', ( #196, #264, #55, #221, #67, #158 ) ) ;
#45 = LINE ( 'NONE', #326, #302 ) ;
#46 = CIRCLE ( 'NONE', #291, 0.3125000000000000000 ) ;
#47 =( NAMED_UNIT ( * ) PLANE_ANGLE_UNIT ( ) SI_UNIT ( $, .RADIAN. ) );
#48 = FACE_OUTER_BOUND ( 'NONE', #7, .T. ) ;
#49 = CARTESIAN_POINT ( 'NONE',  ( 0.1085418506076496203, -0.1879999999999999727, 1.000000000000000000 ) ) ;
#50 =( GEOMETRIC_REPRESENTATION_CONTEXT ( 3 ) GLOBAL_UNCERTAINTY_ASSIGNED_CONTEXT ( ( #131 ) ) GLOBAL_UNIT_ASSIGNED_CONTEXT ( ( #247, #47, #23 ) ) REPRESENTATION_CONTEXT ( 'NONE', 'WORKASPACE' ) );
#51 = CARTESIAN_POINT ( 'NONE',  ( -0.1085418506076496065, -0.1879999999999999727, 1.000000000000000000 ) ) ;
#52 = EDGE_CURVE ( 'NONE', #292, #320, #46, .T. ) ;
#53 = VERTEX_POINT ( 'NONE', #243 ) ;
#54 = CARTESIAN_POINT ( 'NONE',  ( -0.1085418506076496065, 0.1880000000000000282, 1.000000000000000000 ) ) ;
#55 = ORIENTED_EDGE ( 'NONE', *, *, #72, .T. ) ;
#56 =( LENGTH_UNIT ( ) NAMED_UNIT ( * ) SI_UNIT ( $, .METRE. ) );
#57 = VERTEX_POINT ( 'NONE', #299 ) ;
#58 = DIMENSIONAL_EXPONENTS ( 1.000000000000000000, 0.000000000000000000, 0.000000000000000000, 0.000000000000000000, 0.000000000000000000, 0.000000000000000000, 0.000000000000000000 ) ;
#59 = AXIS2_PLACEMENT_3D ( 'NONE', #277, #232, #149 ) ;
#60 = CARTESIAN_POINT ( 'NONE',  ( 0.1085418506076496203, -0.1879999999999999727, 1.000000000000000000 ) ) ;
#61 = ORIENTED_EDGE ( 'NONE', *, *, #148, .F. ) ;
#62 = DIRECTION ( 'NONE',  ( 0.000000000000000000, 0.000000000000000000, 1.000000000000000000 ) ) ;
#63 = ORIENTED_EDGE ( 'NONE', *, *, #20, .T. ) ;
#64 = ORIENTED_EDGE ( 'NONE', *, *, #114, .T. ) ;
#65 = CLOSED_SHELL ( 'NONE', ( #190, #13, #254, #66, #309, #126, #37, #135, #207, #176 ) ) ;
#66 = ADVANCED_FACE ( 'NONE', ( #92 ), #40, .T. ) ;
#67 = ORIENTED_EDGE ( 'NONE', *, *, #319, .T. ) ;
#68 = MANIFOLD_SOLID_BREP ( 'Boss-Extrude1', #65 ) ;
#69 = FILL_AREA_STYLE_COLOUR ( '', #150 ) ;
#70 = ORIENTED_EDGE ( 'NONE', *, *, #52, .T. ) ;
#71 = VECTOR ( 'NONE', #8, 39.37007874015748143 ) ;
#72 = EDGE_CURVE ( 'NONE', #53, #156, #111, .T. ) ;
#73 = CARTESIAN_POINT ( 'NONE',  ( 0.1085418506076495232, 0.1880000000000000282, 0.000000000000000000 ) ) ;
#74 = DIRECTION ( 'NONE',  ( 0.000000000000000000, -0.000000000000000000, 1.000000000000000000 ) ) ;
#75 = DIRECTION ( 'NONE',  ( 0.5000000000000004441, -0.8660254037844383745, 0.000000000000000000 ) ) ;
#76 = DIRECTION ( 'NONE',  ( -0.8660254037844383745, -0.5000000000000004441, 0.000000000000000000 ) ) ;
#77 = CYLINDRICAL_SURFACE ( 'NONE', #101, 0.3125000000000000000 ) ;
#78 = EDGE_CURVE ( 'NONE', #162, #324, #222, .T. ) ;
#79 = CARTESIAN_POINT ( 'NONE',  ( -0.1085418506076496065, 0.1880000000000000282, 1.000000000000000000 ) ) ;
#80 = VECTOR ( 'NONE', #6, 39.37007874015748143 ) ;
#81 = DIRECTION ( 'NONE',  ( -0.8660254037844385966, 0.5000000000000001110, 0.000000000000000000 ) ) ;
#82 = EDGE_LOOP ( 'NONE', ( #318, #9, #296, #5, #115, #108 ) ) ;
#83 = DIMENSIONAL_EXPONENTS ( 1.000000000000000000, 0.000000000000000000, 0.000000000000000000, 0.000000000000000000, 0.000000000000000000, 0.000000000000000000, 0.000000000000000000 ) ;
#84 = CARTESIAN_POINT ( 'NONE',  ( -0.2170837012152992962, -6.822844948385385685E-21, 0.000000000000000000 ) ) ;
#85 = ORIENTED_EDGE ( 'NONE', *, *, #249, .F. ) ;
#86 = DIRECTION ( 'NONE',  ( 0.8660254037844385966, 0.5000000000000001110, -0.000000000000000000 ) ) ;
#87 = ORIENTED_EDGE ( 'NONE', *, *, #153, .T. ) ;
#88 = LINE ( 'NONE', #54, #227 ) ;
#89 = ORIENTED_EDGE ( 'NONE', *, *, #289, .F. ) ;
#90 = CARTESIAN_POINT ( 'NONE',  ( 0.1085418506076495232, 0.1880000000000000282, 1.000000000000000000 ) ) ;
#91 = EDGE_CURVE ( 'NONE', #288, #286, #180, .T. ) ;
#92 = FACE_OUTER_BOUND ( 'NONE', #30, .T. ) ;
#93 = DIRECTION ( 'NONE',  ( 1.000000000000000000, 0.000000000000000000, 0.000000000000000000 ) ) ;
#94 = DIRECTION ( 'NONE',  ( -1.000000000000000000, 0.000000000000000000, 0.000000000000000000 ) ) ;
#95 = ORIENTED_EDGE ( 'NONE', *, *, #197, .T. ) ;
#96 = ORIENTED_EDGE ( 'NONE', *, *, #119, .F. ) ;
#97 = EDGE_CURVE ( 'NONE', #128, #186, #250, .T. ) ;
#98 = CARTESIAN_POINT ( 'NONE',  ( -0.3125000000000000000, 0.000000000000000000, 1.000000000000000000 ) ) ;
#99 = VECTOR ( 'NONE', #187, 39.37007874015748143 ) ;
#100 = LINE ( 'NONE', #154, #248 ) ;
#101 = AXIS2_PLACEMENT_3D ( 'NONE', #147, #151, #228 ) ;
#102 = DIRECTION ( 'NONE',  ( 0.000000000000000000, 0.000000000000000000, 1.000000000000000000 ) ) ;
#103 = PLANE ( 'NONE',  #204 ) ;
#104 = CARTESIAN_POINT ( 'NONE',  ( -0.2170837012152992962, -6.822844948385385685E-21, 1.000000000000000000 ) ) ;
#105 = CARTESIAN_POINT ( 'NONE',  ( 0.1085418506076495232, 0.1880000000000000282, 1.000000000000000000 ) ) ;
#106 = CARTESIAN_POINT ( 'NONE',  ( 0.3125000000000000000, 3.827021247335478926E-17, 0.000000000000000000 ) ) ;
#107 = PLANE ( 'NONE',  #331 ) ;
#108 = ORIENTED_EDGE ( 'NONE', *, *, #294, .F. ) ;
#109 = EDGE_LOOP ( 'NONE', ( #89, #216, #95, #64 ) ) ;
#110 = DIRECTION ( 'NONE',  ( 0.000000000000000000, 0.000000000000000000, 1.000000000000000000 ) ) ;
#111 = LINE ( 'NONE', #73, #43 ) ;
#112 = VECTOR ( 'NONE', #275, 39.37007874015748143 ) ;
#113 = ORIENTED_EDGE ( 'NONE', *, *, #226, .T. ) ;
#114 = EDGE_CURVE ( 'NONE', #57, #53, #278, .T. ) ;
#115 = ORIENTED_EDGE ( 'NONE', *, *, #245, .F. ) ;
#116 = CARTESIAN_POINT ( 'NONE',  ( 0.000000000000000000, 0.000000000000000000, 1.000000000000000000 ) ) ;
#117 = PLANE ( 'NONE',  #306 ) ;
#118 = VECTOR ( 'NONE', #175, 39.37007874015748143 ) ;
#119 = EDGE_CURVE ( 'NONE', #324, #292, #45, .T. ) ;
#120 = CARTESIAN_POINT ( 'NONE',  ( -0.1085418506076496065, 0.1880000000000000282, 1.000000000000000000 ) ) ;
#121 = DIRECTION ( 'NONE',  ( -0.000000000000000000, -0.000000000000000000, -1.000000000000000000 ) ) ;
#122 = CARTESIAN_POINT ( 'NONE',  ( -0.1085418506076496065, 0.1880000000000000282, 1.000000000000000000 ) ) ;
#123 = AXIS2_PLACEMENT_3D ( 'NONE', #24, #76, #75 ) ;
#124 = VECTOR ( 'NONE', #284, 39.37007874015748143 ) ;
#125 = DIRECTION ( 'NONE',  ( -0.000000000000000000, -0.000000000000000000, -1.000000000000000000 ) ) ;
#126 = ADVANCED_FACE ( 'NONE', ( #276 ), #21, .T. ) ;
#127 = FACE_OUTER_BOUND ( 'NONE', #212, .T. ) ;
#128 = VERTEX_POINT ( 'NONE', #304 ) ;
#129 = ORIENTED_EDGE ( 'NONE', *, *, #234, .T. ) ;
#130 = DIRECTION ( 'NONE',  ( 1.000000000000000000, 0.000000000000000000, -0.000000000000000000 ) ) ;
#131 = UNCERTAINTY_MEASURE_WITH_UNIT (LENGTH_MEASURE( 1.000000000000000082E-05 ), #247, 'distance_accuracy_value', 'NONE');
#132 = ORIENTED_EDGE ( 'NONE', *, *, #217, .F. ) ;
#133 = CARTESIAN_POINT ( 'NONE',  ( -0.2170837012152992962, -6.822844948385385685E-21, 1.000000000000000000 ) ) ;
#134 = ORIENTED_EDGE ( 'NONE', *, *, #91, .F. ) ;
#135 = ADVANCED_FACE ( 'NONE', ( #48 ), #152, .T. ) ;
#136 = ORIENTED_EDGE ( 'NONE', *, *, #72, .F. ) ;
#137 = AXIS2_PLACEMENT_3D ( 'NONE', #290, #62, #130 ) ;
#138 = LENGTH_MEASURE_WITH_UNIT ( LENGTH_MEASURE( 0.02539999999999999897 ), #56 );
#139 = CARTESIAN_POINT ( 'NONE',  ( 0.000000000000000000, 0.000000000000000000, 0.000000000000000000 ) ) ;
#140 = ORIENTED_EDGE ( 'NONE', *, *, #171, .F. ) ;
#141 = DIRECTION ( 'NONE',  ( 1.000000000000000000, 0.000000000000000000, 0.000000000000000000 ) ) ;
#142 =( NAMED_UNIT ( * ) PLANE_ANGLE_UNIT ( ) SI_UNIT ( $, .RADIAN. ) );
#143 = VECTOR ( 'NONE', #189, 39.37007874015748143 ) ;
#144 = ORIENTED_EDGE ( 'NONE', *, *, #280, .F. ) ;
#145 = ORIENTED_EDGE ( 'NONE', *, *, #78, .F. ) ;
#146 = PRODUCT_DEFINITION_CONTEXT ( 'detailed design', #300, 'design' ) ;
#147 = CARTESIAN_POINT ( 'NONE',  ( 0.000000000000000000, 0.000000000000000000, 1.000000000000000000 ) ) ;
#148 = EDGE_CURVE ( 'NONE', #156, #240, #177, .T. ) ;
#149 = DIRECTION ( 'NONE',  ( 1.000000000000000000, 0.000000000000000000, 0.000000000000000000 ) ) ;
#150 = COLOUR_RGB ( '',0.7921568627450980005, 0.8196078431372548767, 0.9333333333333333481 ) ;
#151 = DIRECTION ( 'NONE',  ( -0.000000000000000000, -0.000000000000000000, -1.000000000000000000 ) ) ;
#152 = PLANE ( 'NONE',  #182 ) ;
#153 = EDGE_CURVE ( 'NONE', #236, #240, #100, .T. ) ;
#154 = CARTESIAN_POINT ( 'NONE',  ( -0.2170837012152992962, -6.822844948385385685E-21, 1.000000000000000000 ) ) ;
#155 = CARTESIAN_POINT ( 'NONE',  ( -0.1085418506076496065, -0.1879999999999999727, 0.000000000000000000 ) ) ;
#156 = VERTEX_POINT ( 'NONE', #179 ) ;
#157 = LINE ( 'NONE', #155, #71 ) ;
#158 = ORIENTED_EDGE ( 'NONE', *, *, #249, .T. ) ;
#159 = LINE ( 'NONE', #233, #80 ) ;
#160 = ORIENTED_EDGE ( 'NONE', *, *, #234, .F. ) ;
#161 = LINE ( 'NONE', #316, #38 ) ;
#162 = VERTEX_POINT ( 'NONE', #98 ) ;
#163 = ORIENTED_EDGE ( 'NONE', *, *, #217, .T. ) ;
#164 = ADVANCED_BREP_SHAPE_REPRESENTATION ( 'am-3947a-1000 375H x 1000IN Spacer', ( #68, #261 ), #210 ) ;
#165 = AXIS2_PLACEMENT_3D ( 'NONE', #270, #15, #241 ) ;
#166 = VECTOR ( 'NONE', #213, 39.37007874015748143 ) ;
#167 = APPLICATION_PROTOCOL_DEFINITION ( 'draft international standard', 'automotive_design', 1998, #265 ) ;
#168 = LINE ( 'NONE', #41, #118 ) ;
#169 =( NAMED_UNIT ( * ) SI_UNIT ( $, .STERADIAN. ) SOLID_ANGLE_UNIT ( ) );
#170 = SURFACE_STYLE_USAGE ( .BOTH. , #224 ) ;
#171 = EDGE_CURVE ( 'NONE', #320, #292, #22, .T. ) ;
#172 = DIRECTION ( 'NONE',  ( -0.000000000000000000, -0.000000000000000000, -1.000000000000000000 ) ) ;
#173 = AXIS2_PLACEMENT_3D ( 'NONE', #298, #172, #94 ) ;
#174 =( CONVERSION_BASED_UNIT ( 'INCH', #138 ) LENGTH_UNIT ( ) NAMED_UNIT ( #58 ) );
#175 = DIRECTION ( 'NONE',  ( -0.000000000000000000, -0.000000000000000000, -1.000000000000000000 ) ) ;
#176 = ADVANCED_FACE ( 'NONE', ( #28 ), #117, .T. ) ;
#177 = LINE ( 'NONE', #178, #112 ) ;
#178 = CARTESIAN_POINT ( 'NONE',  ( -0.1085418506076496065, 0.1880000000000000282, 0.000000000000000000 ) ) ;
#179 = CARTESIAN_POINT ( 'NONE',  ( -0.1085418506076496065, 0.1880000000000000282, 0.000000000000000000 ) ) ;
#180 = LINE ( 'NONE', #202, #244 ) ;
#181 = CARTESIAN_POINT ( 'NONE',  ( -0.2170837012152992962, -6.822844948385385685E-21, 0.000000000000000000 ) ) ;
#182 = AXIS2_PLACEMENT_3D ( 'NONE', #120, #279, #329 ) ;
#183 = VERTEX_POINT ( 'NONE', #122 ) ;
#184 = LINE ( 'NONE', #31, #253 ) ;
#185 = ORIENTED_EDGE ( 'NONE', *, *, #280, .T. ) ;
#186 = VERTEX_POINT ( 'NONE', #205 ) ;
#187 = DIRECTION ( 'NONE',  ( -0.5000000000000001110, -0.8660254037844385966, 0.000000000000000000 ) ) ;
#188 = VECTOR ( 'NONE', #235, 39.37007874015748143 ) ;
#189 = DIRECTION ( 'NONE',  ( -0.5000000000000004441, 0.8660254037844383745, 0.000000000000000000 ) ) ;
#190 = ADVANCED_FACE ( 'NONE', ( #303 ), #77, .T. ) ;
#191 = ORIENTED_EDGE ( 'NONE', *, *, #171, .T. ) ;
#192 = PLANE ( 'NONE',  #203 ) ;
#193 = ORIENTED_EDGE ( 'NONE', *, *, #319, .F. ) ;
#194 = PRODUCT_DEFINITION_SHAPE ( 'NONE', 'NONE',  #268 ) ;
#195 = PLANE ( 'NONE',  #11 ) ;
#196 = ORIENTED_EDGE ( 'NONE', *, *, #328, .T. ) ;
#197 = EDGE_CURVE ( 'NONE', #186, #57, #201, .T. ) ;
#198 = STYLED_ITEM ( 'NONE', ( #18 ), #68 ) ;
#199 = PRODUCT_DEFINITION_FORMATION_WITH_SPECIFIED_SOURCE ( 'ANY', '', #17, .NOT_KNOWN. ) ;
#200 = DIRECTION ( 'NONE',  ( 0.000000000000000000, 1.000000000000000000, 0.000000000000000000 ) ) ;
#201 = LINE ( 'NONE', #330, #143 ) ;
#202 = CARTESIAN_POINT ( 'NONE',  ( -0.1085418506076496065, -0.1879999999999999727, 1.000000000000000000 ) ) ;
#203 = AXIS2_PLACEMENT_3D ( 'NONE', #116, #322, #223 ) ;
#204 = AXIS2_PLACEMENT_3D ( 'NONE', #60, #81, #263 ) ;
#205 = CARTESIAN_POINT ( 'NONE',  ( 0.2170837012152992962, -8.629126648930641522E-21, 1.000000000000000000 ) ) ;
#206 = DIRECTION ( 'NONE',  ( -0.000000000000000000, -0.000000000000000000, -1.000000000000000000 ) ) ;
#207 = ADVANCED_FACE ( 'NONE', ( #258 ), #107, .T. ) ;
#208 = DIRECTION ( 'NONE',  ( 1.000000000000000000, 0.000000000000000000, 0.000000000000000000 ) ) ;
#209 = ORIENTED_EDGE ( 'NONE', *, *, #25, .T. ) ;
#210 =( GEOMETRIC_REPRESENTATION_CONTEXT ( 3 ) GLOBAL_UNCERTAINTY_ASSIGNED_CONTEXT ( ( #285 ) ) GLOBAL_UNIT_ASSIGNED_CONTEXT ( ( #174, #142, #169 ) ) REPRESENTATION_CONTEXT ( 'NONE', 'WORKASPACE' ) );
#211 = CARTESIAN_POINT ( 'NONE',  ( 0.2170837012152992962, -8.629126648930641522E-21, 0.000000000000000000 ) ) ;
#212 = EDGE_LOOP ( 'NONE', ( #140, #225 ) ) ;
#213 = DIRECTION ( 'NONE',  ( -1.000000000000000000, 0.000000000000000000, 0.000000000000000000 ) ) ;
#214 = EDGE_LOOP ( 'NONE', ( #136, #35, #267, #185 ) ) ;
#215 = PLANE ( 'NONE',  #137 ) ;
#216 = ORIENTED_EDGE ( 'NONE', *, *, #20, .F. ) ;
#217 = EDGE_CURVE ( 'NONE', #162, #320, #293, .T. ) ;
#218 = VECTOR ( 'NONE', #125, 39.37007874015748143 ) ;
#219 = EDGE_LOOP ( 'NONE', ( #315, #209 ) ) ;
#220 = EDGE_LOOP ( 'NONE', ( #193, #246, #271, #32 ) ) ;
#221 = ORIENTED_EDGE ( 'NONE', *, *, #148, .T. ) ;
#222 = CIRCLE ( 'NONE', #59, 0.3125000000000000000 ) ;
#223 = DIRECTION ( 'NONE',  ( 1.000000000000000000, 0.000000000000000000, -0.000000000000000000 ) ) ;
#224 = SURFACE_SIDE_STYLE ('',( #325 ) ) ;
#225 = ORIENTED_EDGE ( 'NONE', *, *, #52, .F. ) ;
#226 = EDGE_CURVE ( 'NONE', #288, #128, #237, .T. ) ;
#227 = VECTOR ( 'NONE', #206, 39.37007874015748143 ) ;
#228 = DIRECTION ( 'NONE',  ( -1.000000000000000000, 0.000000000000000000, 0.000000000000000000 ) ) ;
#229 = CARTESIAN_POINT ( 'NONE',  ( -0.1085418506076496065, -0.1879999999999999727, 1.000000000000000000 ) ) ;
#230 = LENGTH_MEASURE_WITH_UNIT ( LENGTH_MEASURE( 0.02539999999999999897 ), #42 );
#231 = PRESENTATION_LAYER_ASSIGNMENT (  '', '', ( #198 ) ) ;
#232 = DIRECTION ( 'NONE',  ( 0.000000000000000000, 0.000000000000000000, 1.000000000000000000 ) ) ;
#233 = CARTESIAN_POINT ( 'NONE',  ( 0.2170837012152992962, -8.629126648930641522E-21, 0.000000000000000000 ) ) ;
#234 = EDGE_CURVE ( 'NONE', #128, #295, #287, .T. ) ;
#235 = DIRECTION ( 'NONE',  ( -0.000000000000000000, -0.000000000000000000, -1.000000000000000000 ) ) ;
#236 = VERTEX_POINT ( 'NONE', #133 ) ;
#237 = LINE ( 'NONE', #51, #27 ) ;
#238 = DIRECTION ( 'NONE',  ( 0.5000000000000001110, -0.8660254037844385966, 0.000000000000000000 ) ) ;
#239 = FACE_BOUND ( 'NONE', #44, .T. ) ;
#240 = VERTEX_POINT ( 'NONE', #84 ) ;
#241 = DIRECTION ( 'NONE',  ( 1.000000000000000000, 0.000000000000000000, 0.000000000000000000 ) ) ;
#242 = FACE_OUTER_BOUND ( 'NONE', #219, .T. ) ;
#243 = CARTESIAN_POINT ( 'NONE',  ( 0.1085418506076495232, 0.1880000000000000282, 0.000000000000000000 ) ) ;
#244 = VECTOR ( 'NONE', #121, 39.37007874015748143 ) ;
#245 = EDGE_CURVE ( 'NONE', #183, #236, #311, .T. ) ;
#246 = ORIENTED_EDGE ( 'NONE', *, *, #153, .F. ) ;
#247 =( CONVERSION_BASED_UNIT ( 'INCH', #230 ) LENGTH_UNIT ( ) NAMED_UNIT ( #83 ) );
#248 = VECTOR ( 'NONE', #26, 39.37007874015748143 ) ;
#249 = EDGE_CURVE ( 'NONE', #286, #295, #157, .T. ) ;
#250 = LINE ( 'NONE', #49, #273 ) ;
#251 = DIRECTION ( 'NONE',  ( -0.000000000000000000, -0.000000000000000000, -1.000000000000000000 ) ) ;
#252 = DIRECTION ( 'NONE',  ( 1.000000000000000000, 0.000000000000000000, 0.000000000000000000 ) ) ;
#253 = VECTOR ( 'NONE', #312, 39.37007874015748143 ) ;
#254 = ADVANCED_FACE ( 'NONE', ( #127, #239 ), #215, .F. ) ;
#255 = DIRECTION ( 'NONE',  ( -0.5000000000000001110, 0.8660254037844385966, 0.000000000000000000 ) ) ;
#256 = LINE ( 'NONE', #181, #124 ) ;
#257 = VERTEX_POINT ( 'NONE', #211 ) ;
#258 = FACE_OUTER_BOUND ( 'NONE', #220, .T. ) ;
#259 = MECHANICAL_DESIGN_GEOMETRIC_PRESENTATION_REPRESENTATION (  '', ( #198 ), #50 ) ;
#260 = ORIENTED_EDGE ( 'NONE', *, *, #245, .T. ) ;
#261 = AXIS2_PLACEMENT_3D ( 'NONE', #321, #297, #93 ) ;
#262 = EDGE_CURVE ( 'NONE', #236, #288, #161, .T. ) ;
#263 = DIRECTION ( 'NONE',  ( -0.5000000000000001110, -0.8660254037844385966, 0.000000000000000000 ) ) ;
#264 = ORIENTED_EDGE ( 'NONE', *, *, #289, .T. ) ;
#265 = APPLICATION_CONTEXT ( 'automotive_design' ) ;
#266 = CARTESIAN_POINT ( 'NONE',  ( -0.1085418506076496065, -0.1879999999999999727, 0.000000000000000000 ) ) ;
#267 = ORIENTED_EDGE ( 'NONE', *, *, #294, .T. ) ;
#268 = PRODUCT_DEFINITION ( 'UNKNOWN', '', #199, #146 ) ;
#269 = EDGE_LOOP ( 'NONE', ( #2, #160, #283, #63 ) ) ;
#270 = CARTESIAN_POINT ( 'NONE',  ( 0.000000000000000000, 0.000000000000000000, 1.000000000000000000 ) ) ;
#271 = ORIENTED_EDGE ( 'NONE', *, *, #262, .T. ) ;
#272 = APPLICATION_PROTOCOL_DEFINITION ( 'draft international standard', 'automotive_design', 1998, #300 ) ;
#273 = VECTOR ( 'NONE', #305, 39.37007874015748143 ) ;
#274 = DIRECTION ( 'NONE',  ( 0.000000000000000000, -0.000000000000000000, -1.000000000000000000 ) ) ;
#275 = DIRECTION ( 'NONE',  ( -0.5000000000000001110, -0.8660254037844385966, 0.000000000000000000 ) ) ;
#276 = FACE_OUTER_BOUND ( 'NONE', #109, .T. ) ;
#277 = CARTESIAN_POINT ( 'NONE',  ( 0.000000000000000000, 0.000000000000000000, 1.000000000000000000 ) ) ;
#278 = LINE ( 'NONE', #307, #218 ) ;
#279 = DIRECTION ( 'NONE',  ( 0.8660254037844385966, -0.5000000000000001110, 0.000000000000000000 ) ) ;
#280 = EDGE_CURVE ( 'NONE', #183, #156, #88, .T. ) ;
#281 = AXIS2_PLACEMENT_3D ( 'NONE', #308, #102, #252 ) ;
#282 = CARTESIAN_POINT ( 'NONE',  ( -0.3125000000000000000, 0.000000000000000000, 0.000000000000000000 ) ) ;
#283 = ORIENTED_EDGE ( 'NONE', *, *, #97, .T. ) ;
#284 = DIRECTION ( 'NONE',  ( 0.5000000000000001110, -0.8660254037844385966, 0.000000000000000000 ) ) ;
#285 = UNCERTAINTY_MEASURE_WITH_UNIT (LENGTH_MEASURE( 1.000000000000000082E-05 ), #174, 'distance_accuracy_value', 'NONE');
#286 = VERTEX_POINT ( 'NONE', #266 ) ;
#287 = LINE ( 'NONE', #36, #327 ) ;
#288 = VERTEX_POINT ( 'NONE', #4 ) ;
#289 = EDGE_CURVE ( 'NONE', #257, #53, #159, .T. ) ;
#290 = CARTESIAN_POINT ( 'NONE',  ( 0.000000000000000000, 0.000000000000000000, 0.000000000000000000 ) ) ;
#291 = AXIS2_PLACEMENT_3D ( 'NONE', #139, #110, #141 ) ;
#292 = VERTEX_POINT ( 'NONE', #106 ) ;
#293 = LINE ( 'NONE', #314, #188 ) ;
#294 = EDGE_CURVE ( 'NONE', #57, #183, #333, .T. ) ;
#295 = VERTEX_POINT ( 'NONE', #310 ) ;
#296 = ORIENTED_EDGE ( 'NONE', *, *, #226, .F. ) ;
#297 = DIRECTION ( 'NONE',  ( 0.000000000000000000, 0.000000000000000000, 1.000000000000000000 ) ) ;
#298 = CARTESIAN_POINT ( 'NONE',  ( 0.000000000000000000, 0.000000000000000000, 1.000000000000000000 ) ) ;
#299 = CARTESIAN_POINT ( 'NONE',  ( 0.1085418506076495232, 0.1880000000000000282, 1.000000000000000000 ) ) ;
#300 = APPLICATION_CONTEXT ( 'automotive_design' ) ;
#301 = FACE_OUTER_BOUND ( 'NONE', #214, .T. ) ;
#302 = VECTOR ( 'NONE', #251, 39.37007874015748143 ) ;
#303 = FACE_OUTER_BOUND ( 'NONE', #12, .T. ) ;
#304 = CARTESIAN_POINT ( 'NONE',  ( 0.1085418506076496203, -0.1879999999999999727, 1.000000000000000000 ) ) ;
#305 = DIRECTION ( 'NONE',  ( 0.5000000000000001110, 0.8660254037844385966, 0.000000000000000000 ) ) ;
#306 = AXIS2_PLACEMENT_3D ( 'NONE', #229, #200, #74 ) ;
#307 = CARTESIAN_POINT ( 'NONE',  ( 0.1085418506076495232, 0.1880000000000000282, 1.000000000000000000 ) ) ;
#308 = CARTESIAN_POINT ( 'NONE',  ( 0.000000000000000000, 0.000000000000000000, 0.000000000000000000 ) ) ;
#309 = ADVANCED_FACE ( 'NONE', ( #29 ), #103, .T. ) ;
#310 = CARTESIAN_POINT ( 'NONE',  ( 0.1085418506076496203, -0.1879999999999999727, 0.000000000000000000 ) ) ;
#311 = LINE ( 'NONE', #79, #99 ) ;
#312 = DIRECTION ( 'NONE',  ( 0.5000000000000001110, 0.8660254037844385966, 0.000000000000000000 ) ) ;
#313 = ORIENTED_EDGE ( 'NONE', *, *, #119, .T. ) ;
#314 = CARTESIAN_POINT ( 'NONE',  ( -0.3125000000000000000, 0.000000000000000000, 1.000000000000000000 ) ) ;
#315 = ORIENTED_EDGE ( 'NONE', *, *, #78, .T. ) ;
#316 = CARTESIAN_POINT ( 'NONE',  ( -0.2170837012152992962, -6.822844948385385685E-21, 1.000000000000000000 ) ) ;
#317 = CIRCLE ( 'NONE', #165, 0.3125000000000000000 ) ;
#318 = ORIENTED_EDGE ( 'NONE', *, *, #197, .F. ) ;
#319 = EDGE_CURVE ( 'NONE', #240, #286, #256, .T. ) ;
#320 = VERTEX_POINT ( 'NONE', #282 ) ;
#321 = CARTESIAN_POINT ( 'NONE',  ( 0.000000000000000000, 0.000000000000000000, 0.000000000000000000 ) ) ;
#322 = DIRECTION ( 'NONE',  ( 0.000000000000000000, 0.000000000000000000, 1.000000000000000000 ) ) ;
#323 = FILL_AREA_STYLE ('',( #69 ) ) ;
#324 = VERTEX_POINT ( 'NONE', #1 ) ;
#325 = SURFACE_STYLE_FILL_AREA ( #323 ) ;
#326 = CARTESIAN_POINT ( 'NONE',  ( 0.3125000000000000000, 3.827021247335478926E-17, 1.000000000000000000 ) ) ;
#327 = VECTOR ( 'NONE', #33, 39.37007874015748143 ) ;
#328 = EDGE_CURVE ( 'NONE', #295, #257, #184, .T. ) ;
#329 = DIRECTION ( 'NONE',  ( 0.5000000000000001110, 0.8660254037844385966, 0.000000000000000000 ) ) ;
#330 = CARTESIAN_POINT ( 'NONE',  ( 0.2170837012152992962, -8.629126648930641522E-21, 1.000000000000000000 ) ) ;
#331 = AXIS2_PLACEMENT_3D ( 'NONE', #104, #86, #255 ) ;
#332 = DIRECTION ( 'NONE',  ( -1.000000000000000000, 0.000000000000000000, 0.000000000000000000 ) ) ;
#333 = LINE ( 'NONE', #105, #166 ) ;
ENDSEC;
END-ISO-10303-21;
